  0
SECTION
  2
HEADER
  9
$ACADVER
  1
AC1015
  9
$ACADMAINTVER
 70
     6
  9
$DWGCODEPAGE
  3
ANSI_1254
  9
$INSBASE
 10
0.0
 20
0.0
 30
0.0
  9
$EXTMIN
 10
0.0
 20
0.0
 30
0.0
  9
$EXTMAX
 10
279.4
 20
215.9
 30
0.0
  9
$LIMMIN
 10
0.0
 20
0.0
  9
$LIMMAX
 10
279.4
 20
215.9
  9
$ORTHOMODE
 70
     0
  9
$REGENMODE
 70
     1
  9
$FILLMODE
 70
     1
  9
$QTEXTMODE
 70
     0
  9
$MIRRTEXT
 70
     1
  9
$LTSCALE
 40
1.0
  9
$ATTMODE
 70
     1
  9
$TEXTSIZE
 40
3.5
  9
$TRACEWID
 40
1.0
  9
$TEXTSTYLE
  7
Standard
  9
$CLAYER
  8
0
  9
$CELTYPE
  6
ByLayer
  9
$CECOLOR
 62
   256
  9
$CELTSCALE
 40
1.0
  9
$DISPSILH
 70
     0
  9
$DIMSCALE
 40
1.0
  9
$DIMASZ
 40
3.5
  9
$DIMEXO
 40
1.0
  9
$DIMDLI
 40
3.75
  9
$DIMRND
 40
0.0
  9
$DIMDLE
 40
0.0
  9
$DIMEXE
 40
1.0
  9
$DIMTP
 40
0.0
  9
$DIMTM
 40
0.0
  9
$DIMTXT
 40
3.5
  9
$DIMCEN
 40
2.5
  9
$DIMTSZ
 40
0.0
  9
$DIMTOL
 70
     0
  9
$DIMLIM
 70
     0
  9
$DIMTIH
 70
     1
  9
$DIMTOH
 70
     1
  9
$DIMSE1
 70
     0
  9
$DIMSE2
 70
     0
  9
$DIMTAD
 70
     1
  9
$DIMZIN
 70
     0
  9
$DIMBLK
  1

  9
$DIMASO
 70
     1
  9
$DIMSHO
 70
     1
  9
$DIMPOST
  1

  9
$DIMAPOST
  1

  9
$DIMALT
 70
     0
  9
$DIMALTD
 70
     3
  9
$DIMALTF
 40
0.0393700787
  9
$DIMLFAC
 40
1.0
  9
$DIMTOFL
 70
     1
  9
$DIMTVP
 40
0.0
  9
$DIMTIX
 70
     0
  9
$DIMSOXD
 70
     0
  9
$DIMSAH
 70
     0
  9
$DIMBLK1
  1

  9
$DIMBLK2
  1

  9
$DIMSTYLE
  2
ISO-25
  9
$DIMCLRD
 70
     0
  9
$DIMCLRE
 70
     0
  9
$DIMCLRT
 70
     0
  9
$DIMTFAC
 40
1.0
  9
$DIMGAP
 40
1.524
  9
$DIMJUST
 70
     0
  9
$DIMSD1
 70
     0
  9
$DIMSD2
 70
     0
  9
$DIMTOLJ
 70
     0
  9
$DIMTZIN
 70
     0
  9
$DIMALTZ
 70
     0
  9
$DIMALTTZ
 70
     0
  9
$DIMUPT
 70
     0
  9
$DIMDEC
 70
     2
  9
$DIMTDEC
 70
     2
  9
$DIMALTU
 70
     2
  9
$DIMALTTD
 70
     3
  9
$DIMTXSTY
  7
Standard
  9
$DIMAUNIT
 70
     0
  9
$DIMADEC
 70
     2
  9
$DIMALTRND
 40
0.0
  9
$DIMAZIN
 70
     0
  9
$DIMDSEP
 70
    44
  9
$DIMATFIT
 70
     3
  9
$DIMFRAC
 70
     0
  9
$DIMLDRBLK
  1

  9
$DIMLUNIT
 70
     2
  9
$DIMLWD
 70
    -2
  9
$DIMLWE
 70
    -2
  9
$DIMTMOVE
 70
     0
  9
$LUNITS
 70
     2
  9
$LUPREC
 70
     2
  9
$SKETCHINC
 40
1.0
  9
$FILLETRAD
 40
10.0
  9
$AUNITS
 70
     0
  9
$AUPREC
 70
     2
  9
$MENU
  1
.
  9
$ELEVATION
 40
0.0
  9
$PELEVATION
 40
0.0
  9
$THICKNESS
 40
0.0
  9
$LIMCHECK
 70
     0
  9
$CHAMFERA
 40
0.0
  9
$CHAMFERB
 40
0.0
  9
$CHAMFERC
 40
0.0
  9
$CHAMFERD
 40
0.0
  9
$SKPOLY
 70
     0
  9
$TDCREATE
 40
2458985.699687558
  9
$TDUCREATE
 40
2458985.574687558
  9
$TDUPDATE
 40
2458985.699687859
  9
$TDUUPDATE
 40
2458985.574687859
  9
$TDINDWG
 40
0.0000000116
  9
$TDUSRTIMER
 40
0.0000000116
  9
$USRTIMER
 70
     1
  9
$ANGBASE
 50
0.0
  9
$ANGDIR
 70
     0
  9
$PDMODE
 70
     0
  9
$PDSIZE
 40
-1.0
  9
$PLINEWID
 40
0.0
  9
$SPLFRAME
 70
     0
  9
$SPLINETYPE
 70
     6
  9
$SPLINESEGS
 70
     8
  9
$HANDSEED
  5
F1
  9
$SURFTAB1
 70
     6
  9
$SURFTAB2
 70
     6
  9
$SURFTYPE
 70
     6
  9
$SURFU
 70
     6
  9
$SURFV
 70
     6
  9
$UCSBASE
  2

  9
$UCSNAME
  2

  9
$UCSORG
 10
0.0
 20
0.0
 30
0.0
  9
$UCSXDIR
 10
1.0
 20
0.0
 30
0.0
  9
$UCSYDIR
 10
0.0
 20
1.0
 30
0.0
  9
$UCSORTHOREF
  2

  9
$UCSORTHOVIEW
 70
     0
  9
$UCSORGTOP
 10
0.0
 20
0.0
 30
0.0
  9
$UCSORGBOTTOM
 10
0.0
 20
0.0
 30
0.0
  9
$UCSORGLEFT
 10
0.0
 20
0.0
 30
0.0
  9
$UCSORGRIGHT
 10
0.0
 20
0.0
 30
0.0
  9
$UCSORGFRONT
 10
0.0
 20
0.0
 30
0.0
  9
$UCSORGBACK
 10
0.0
 20
0.0
 30
0.0
  9
$PUCSBASE
  2

  9
$PUCSNAME
  2

  9
$PUCSORG
 10
0.0
 20
0.0
 30
0.0
  9
$PUCSXDIR
 10
1.0
 20
0.0
 30
0.0
  9
$PUCSYDIR
 10
0.0
 20
1.0
 30
0.0
  9
$PUCSORTHOREF
  2

  9
$PUCSORTHOVIEW
 70
     0
  9
$PUCSORGTOP
 10
0.0
 20
0.0
 30
0.0
  9
$PUCSORGBOTTOM
 10
0.0
 20
0.0
 30
0.0
  9
$PUCSORGLEFT
 10
0.0
 20
0.0
 30
0.0
  9
$PUCSORGRIGHT
 10
0.0
 20
0.0
 30
0.0
  9
$PUCSORGFRONT
 10
0.0
 20
0.0
 30
0.0
  9
$PUCSORGBACK
 10
0.0
 20
0.0
 30
0.0
  9
$USERI1
 70
     0
  9
$USERI2
 70
     0
  9
$USERI3
 70
     0
  9
$USERI4
 70
     0
  9
$USERI5
 70
     0
  9
$USERR1
 40
0.0
  9
$USERR2
 40
0.0
  9
$USERR3
 40
0.0
  9
$USERR4
 40
0.0
  9
$USERR5
 40
0.0
  9
$WORLDVIEW
 70
     1
  9
$SHADEDGE
 70
     3
  9
$SHADEDIF
 70
    70
  9
$TILEMODE
 70
     1
  9
$MAXACTVP
 70
    64
  9
$PINSBASE
 10
0.0
 20
0.0
 30
0.0
  9
$PLIMCHECK
 70
     0
  9
$PEXTMIN
 10
1.0000000000E+20
 20
1.0000000000E+20
 30
1.0000000000E+20
  9
$PEXTMAX
 10
-1.0000000000E+20
 20
-1.0000000000E+20
 30
-1.0000000000E+20
  9
$PLIMMIN
 10
0.0
 20
0.0
  9
$PLIMMAX
 10
420.0
 20
297.0
  9
$UNITMODE
 70
     0
  9
$VISRETAIN
 70
     1
  9
$PLINEGEN
 70
     0
  9
$PSLTSCALE
 70
     1
  9
$TREEDEPTH
 70
  3020
  9
$CMLSTYLE
  2
Standard
  9
$CMLJUST
 70
     0
  9
$CMLSCALE
 40
20.0
  9
$PROXYGRAPHICS
 70
     1
  9
$MEASUREMENT
 70
     1
  9
$CELWEIGHT
370
    -1
  9
$ENDCAPS
280
     0
  9
$JOINSTYLE
280
     0
  9
$LWDISPLAY
290
     1
  9
$INSUNITS
 70
     4
  9
$HYPERLINKBASE
  1

  9
$STYLESHEET
  1

  9
$XEDIT
290
     1
  9
$CEPSNTYPE
380
     0
  9
$PSTYLEMODE
290
     1
  9
$FINGERPRINTGUID
  2
{3dfe6d01-e711-4300-9eea-949bb3a66d6e}
  9
$VERSIONGUID
  2
{FAEB1C32-E019-11D5-929B-00C0DF256EC4}
  9
$EXTNAMES
290
     1
  9
$PSVPSCALE
 40
0.0
  9
$OLESTARTUP
290
     0
  0
ENDSEC
  0
SECTION
  2
CLASSES
  0
CLASS
  1
ACDBDICTIONARYWDFLT
  2
AcDbDictionaryWithDefault
  3
ObjectDBX Classes
 90
        0
280
     0
281
     0
  0
CLASS
  1
VISUALSTYLE
  2
AcDbVisualStyle
  3
ObjectDBX Classes
 90
     4095
280
     0
281
     0
  0
CLASS
  1
MATERIAL
  2
AcDbMaterial
  3
ObjectDBX Classes
 90
     1153
280
     0
281
     0
  0
CLASS
  1
SCALE
  2
AcDbScale
  3
ObjectDBX Classes
 90
     1153
280
     0
281
     0
  0
CLASS
  1
TABLESTYLE
  2
AcDbTableStyle
  3
ObjectDBX Classes
 90
     4095
280
     0
281
     0
  0
CLASS
  1
MLEADERSTYLE
  2
AcDbMLeaderStyle
  3
ACDB_MLEADERSTYLE_CLASS
 90
     4095
280
     0
281
     0
  0
CLASS
  1
SUN
  2
AcDbSun
  3
SCENEOE
 90
     1153
280
     0
281
     0
  0
CLASS
  1
ACDBPLACEHOLDER
  2
AcDbPlaceHolder
  3
ObjectDBX Classes
 90
        0
280
     0
281
     0
  0
CLASS
  1
LAYOUT
  2
AcDbLayout
  3
ObjectDBX Classes
 90
        0
280
     0
281
     0
  0
ENDSEC
  0
SECTION
  2
TABLES
  0
TABLE
  2
VPORT
  5
8
330
0
100
AcDbSymbolTable
 70
     1
  0
VPORT
  5
29
330
8
100
AcDbSymbolTableRecord
100
AcDbViewportTableRecord
  2
*Active
 70
     0
 10
0.0
 20
0.0
 11
1.0
 21
1.0
 12
139.7
 22
107.95
 13
0.0
 23
0.0
 14
10.0
 24
10.0
 15
10.0
 25
10.0
 16
0.0
 26
0.0
 36
1.0
 17
0.0
 27
0.0
 37
0.0
 40
215.9
 41
1.2941176471
 42
50.0
 43
0.0
 44
0.0
 50
0.0
 51
0.0
 71
     0
 72
  2000
 73
     1
 74
     3
 75
     0
 76
     0
 77
     0
 78
     0
281
     0
 65
     1
110
0.0
120
0.0
130
0.0
111
1.0
121
0.0
131
0.0
112
0.0
122
1.0
132
0.0
 79
     0
146
0.0
  0
ENDTAB
  0
TABLE
  2
LTYPE
  5
5
330
0
100
AcDbSymbolTable
 70
     6
  0
LTYPE
  5
14
330
5
100
AcDbSymbolTableRecord
100
AcDbLinetypeTableRecord
  2
ByBlock
 70
     0
  3

 72
    65
 73
     0
 40
0.0
  0
LTYPE
  5
15
330
5
100
AcDbSymbolTableRecord
100
AcDbLinetypeTableRecord
  2
ByLayer
 70
     0
  3

 72
    65
 73
     0
 40
0.0
  0
LTYPE
  5
16
330
5
100
AcDbSymbolTableRecord
100
AcDbLinetypeTableRecord
  2
Continuous
 70
     0
  3
Solid line
 72
    65
 73
     0
 40
0.0
  0
LTYPE
  5
6E
330
5
100
AcDbSymbolTableRecord
100
AcDbLinetypeTableRecord
  2
HIDDEN
 70
     0
  3
Hidden __ __ __ __ __ __ __ __ __ __ __ __ __ __
 72
    65
 73
     2
 40
1.905
 49
1.27
 74
     0
 49
-0.635
 74
     0
  0
LTYPE
  5
6F
330
5
100
AcDbSymbolTableRecord
100
AcDbLinetypeTableRecord
  2
PHANTOM
 70
     0
  3
Phantom ______  __  __  ______  __  __  ______
 72
    65
 73
     6
 40
12.7
 49
6.35
 74
     0
 49
-1.27
 74
     0
 49
1.27
 74
     0
 49
-1.27
 74
     0
 49
1.27
 74
     0
 49
-1.27
 74
     0
  0
LTYPE
  5
70
330
5
100
AcDbSymbolTableRecord
100
AcDbLinetypeTableRecord
  2
CENTER
 70
     0
  3
Center ____ _ ____ _ ____ _ ____ _ ____ _ ____
 72
    65
 73
     4
 40
10.16
 49
6.35
 74
     0
 49
-1.27
 74
     0
 49
1.27
 74
     0
 49
-1.27
 74
     0
  0
LTYPE
  5
71
330
5
100
AcDbSymbolTableRecord
100
AcDbLinetypeTableRecord
  2
CENTERX2
 70
     0
  3
Center (2x) ________  __  ________  __  _____
 72
    65
 73
     4
 40
20.32
 49
12.7
 74
     0
 49
-2.54
 74
     0
 49
2.54
 74
     0
 49
-2.54
 74
     0
  0
LTYPE
  5
72
330
5
100
AcDbSymbolTableRecord
100
AcDbLinetypeTableRecord
  2
DOT2
 70
     0
  3
Dot (.5x) ........................................
 72
    65
 73
     2
 40
0.635
 49
0.0
 74
     0
 49
-0.635
 74
     0
  0
ENDTAB
  0
TABLE
  2
LAYER
  5
2
330
0
100
AcDbSymbolTable
 70
    17
  0
LAYER
  5
10
330
2
100
AcDbSymbolTableRecord
100
AcDbLayerTableRecord
  2
0
 70
     0
 62
     7
  6
Continuous
370
    -3
390
F
  0
LAYER
  5
73
330
2
100
AcDbSymbolTableRecord
100
AcDbLayerTableRecord
  2
FORMAT
 70
     0
 62
     7
  6
Continuous
370
    -3
390
F
  0
LAYER
  5
74
330
2
100
AcDbSymbolTableRecord
100
AcDbLayerTableRecord
  2
YARDIMCI_GEOMETRI
 70
     0
 62
    -6
  6
Continuous
290
     0
370
    -3
390
F
  0
LAYER
  5
75
330
2
100
AcDbSymbolTableRecord
100
AcDbLayerTableRecord
  2
SAYFA_CERCEVESI
 70
     0
 62
     7
  6
Continuous
370
    25
390
F
  0
LAYER
  5
76
330
2
100
AcDbSymbolTableRecord
100
AcDbLayerTableRecord
  2
ANTET
 70
     0
 62
     7
  6
Continuous
370
    -3
390
F
  0
LAYER
  5
77
330
2
100
AcDbSymbolTableRecord
100
AcDbLayerTableRecord
  2
OLCU
 70
     0
 62
   150
  6
Continuous
370
    -3
390
F
  0
LAYER
  5
78
330
2
100
AcDbSymbolTableRecord
100
AcDbLayerTableRecord
  2
METIN
 70
     0
 62
    96
  6
Continuous
370
    -3
390
F
  0
LAYER
  5
79
330
2
100
AcDbSymbolTableRecord
100
AcDbLayerTableRecord
  2
BALON
 70
     0
 62
     5
  6
Continuous
370
    -3
390
F
  0
LAYER
  5
7A
330
2
100
AcDbSymbolTableRecord
100
AcDbLayerTableRecord
  2
VURGU
 70
     0
 62
     7
  6
Continuous
370
    -3
390
F
  0
LAYER
  5
7B
330
2
100
AcDbSymbolTableRecord
100
AcDbLayerTableRecord
  2
SILIK
 70
     0
 62
     7
  6
Continuous
370
    -3
390
F
  0
LAYER
  5
7C
330
2
100
AcDbSymbolTableRecord
100
AcDbLayerTableRecord
  2
MODEL
 70
     0
 62
     7
  6
Continuous
370
    -3
390
F
  0
LAYER
  5
7D
330
2
100
AcDbSymbolTableRecord
100
AcDbLayerTableRecord
  2
DETAYLANDıRMA
 70
     0
 62
   190
  6
Continuous
370
    -3
390
F
  0
LAYER
  5
7E
330
2
100
AcDbSymbolTableRecord
100
AcDbLayerTableRecord
  2
TOLERANS
 70
     0
 62
   230
  6
Continuous
370
    -3
390
F
  0
LAYER
  5
7F
330
2
100
AcDbSymbolTableRecord
100
AcDbLayerTableRecord
  2
MERKEZ_CIZGILERI
 70
     0
 62
    30
  6
Continuous
370
    -3
390
F
  0
LAYER
  5
80
330
2
100
AcDbSymbolTableRecord
100
AcDbLayerTableRecord
  2
KESIT-DETAY_CIZGILERI
 70
     0
 62
     7
  6
Continuous
370
    -3
390
F
  0
LAYER
  5
81
330
2
100
AcDbSymbolTableRecord
100
AcDbLayerTableRecord
  2
\U+041E\U+0421\U+0415\U+0412\U+042B\U+0415
 70
     0
 62
     7
  6
Continuous
370
    -3
390
F
  0
LAYER
  5
82
330
2
100
AcDbSymbolTableRecord
100
AcDbLayerTableRecord
  2
\U+0412\U+041E\U+0414\U+042F\U+041D\U+042B\U+0415_\U+0417\U+041D\U+0410\U+041A\U+0418
 70
     0
 62
    11
  6
Continuous
370
    -3
390
F
  0
ENDTAB
  0
TABLE
  2
STYLE
  5
3
330
0
100
AcDbSymbolTable
 70
     1
  0
STYLE
  5
11
330
3
100
AcDbSymbolTableRecord
100
AcDbTextStyleTableRecord
  2
Standard
 70
     0
 40
0.0
 41
1.0
 50
0.0
 71
     0
 42
3.5
  3
txt
  4

  0
ENDTAB
  0
TABLE
  2
VIEW
  5
6
330
0
100
AcDbSymbolTable
 70
     0
  0
ENDTAB
  0
TABLE
  2
UCS
  5
7
330
0
100
AcDbSymbolTable
 70
     0
  0
ENDTAB
  0
TABLE
  2
APPID
  5
9
330
0
100
AcDbSymbolTable
 70
     1
  0
APPID
  5
12
330
9
100
AcDbSymbolTableRecord
100
AcDbRegAppTableRecord
  2
ACAD
 70
     0
  0
ENDTAB
  0
TABLE
  2
DIMSTYLE
  5
A
330
0
100
AcDbSymbolTable
 70
     1
100
AcDbDimStyleTable
  0
DIMSTYLE
105
27
330
A
100
AcDbSymbolTableRecord
100
AcDbDimStyleTableRecord
  2
ISO-25
 70
     0
 41
2.5
 42
0.625
 43
3.75
 44
1.25
 73
     0
 74
     0
 77
     1
 78
     8
140
2.5
141
2.5
143
0.0393700787
147
0.625
171
     3
172
     1
178
     0
271
     2
272
     2
274
     3
278
    44
283
     0
284
     8
340
11
  0
ENDTAB
  0
TABLE
  2
BLOCK_RECORD
  5
1
330
0
100
AcDbSymbolTable
 70
     2
  0
BLOCK_RECORD
  5
1F
330
1
100
AcDbSymbolTableRecord
100
AcDbBlockTableRecord
  2
*Model_Space
340
22
  0
BLOCK_RECORD
  5
1B
330
1
100
AcDbSymbolTableRecord
100
AcDbBlockTableRecord
  2
*Paper_Space
340
1E
  0
BLOCK_RECORD
  5
23
330
1
100
AcDbSymbolTableRecord
100
AcDbBlockTableRecord
  2
*Paper_Space0
340
26
  0
BLOCK_RECORD
  5
88
330
1
100
AcDbSymbolTableRecord
100
AcDbBlockTableRecord
  2
SW_CENTERMARKSYMBOL_0
340
0
102
{BLKREFS
331
93
102
}
  0
ENDTAB
  0
ENDSEC
  0
SECTION
  2
BLOCKS
  0
BLOCK
  5
20
330
1F
100
AcDbEntity
  8
0
100
AcDbBlockBegin
  2
*Model_Space
 70
     0
 10
0.0
 20
0.0
 30
0.0
  3
*Model_Space
  1

  0
ENDBLK
  5
21
330
1F
100
AcDbEntity
  8
0
100
AcDbBlockEnd
  0
BLOCK
  5
1C
330
1B
100
AcDbEntity
 67
     1
  8
0
100
AcDbBlockBegin
  2
*Paper_Space
 70
     0
 10
0.0
 20
0.0
 30
0.0
  3
*Paper_Space
  1

  0
ENDBLK
  5
1D
330
1B
100
AcDbEntity
 67
     1
  8
0
100
AcDbBlockEnd
  0
BLOCK
  5
24
330
23
100
AcDbEntity
  8
0
100
AcDbBlockBegin
  2
*Paper_Space0
 70
     0
 10
0.0
 20
0.0
 30
0.0
  3
*Paper_Space0
  1

  0
ENDBLK
  5
25
330
23
100
AcDbEntity
  8
0
100
AcDbBlockEnd
  0
BLOCK
  5
89
330
88
100
AcDbEntity
  8
0
100
AcDbBlockBegin
  2
SW_CENTERMARKSYMBOL_0
 70
     0
 10
0.0
 20
0.0
 30
0.0
  3
SW_CENTERMARKSYMBOL_0
  1

  0
LINE
  5
8B
330
88
100
AcDbEntity
  8
FORMAT
 62
     0
100
AcDbLine
 10
0.0
 20
0.0
 30
0.0
 11
0.0
 21
2.5
 31
0.0
  0
LINE
  5
8C
330
88
100
AcDbEntity
  8
FORMAT
 62
     0
100
AcDbLine
 10
0.0
 20
0.0
 30
0.0
 11
-2.5
 21
0.0
 31
0.0
  0
LINE
  5
8D
330
88
100
AcDbEntity
  8
FORMAT
 62
     0
100
AcDbLine
 10
0.0
 20
0.0
 30
0.0
 11
0.0
 21
-2.5
 31
0.0
  0
LINE
  5
8E
330
88
100
AcDbEntity
  8
FORMAT
 62
     0
100
AcDbLine
 10
0.0
 20
0.0
 30
0.0
 11
2.5
 21
0.0
 31
0.0
  0
LINE
  5
8F
330
88
100
AcDbEntity
  8
FORMAT
 62
     0
100
AcDbLine
 10
0.0
 20
5.0
 30
0.0
 11
0.0
 21
127.5
 31
0.0
  0
LINE
  5
90
330
88
100
AcDbEntity
  8
FORMAT
 62
     0
100
AcDbLine
 10
-5.0
 20
0.0
 30
0.0
 11
-127.5
 21
0.0
 31
0.0
  0
LINE
  5
91
330
88
100
AcDbEntity
  8
FORMAT
 62
     0
100
AcDbLine
 10
0.0
 20
-5.0
 30
0.0
 11
0.0
 21
-127.5
 31
0.0
  0
LINE
  5
92
330
88
100
AcDbEntity
  8
FORMAT
 62
     0
100
AcDbLine
 10
5.0
 20
0.0
 30
0.0
 11
127.5
 21
0.0
 31
0.0
  0
ENDBLK
  5
8A
330
88
100
AcDbEntity
  8
0
100
AcDbBlockEnd
  0
ENDSEC
  0
SECTION
  2
ENTITIES
  0
CIRCLE
  5
83
330
1F
100
AcDbEntity
  8
0
  6
Continuous
 62
     7
370
    25
100
AcDbCircle
 10
139.395004093
 20
107.5851680021
 30
0.0
 40
125.0
  0
CIRCLE
  5
84
330
1F
100
AcDbEntity
  8
0
  6
Continuous
 62
     7
370
    25
100
AcDbCircle
 10
139.395004093
 20
107.5851680021
 30
0.0
 40
102.3
  0
CIRCLE
  5
85
330
1F
100
AcDbEntity
  8
0
  6
Continuous
 62
     7
370
    25
100
AcDbCircle
 10
139.395004093
 20
107.5851680021
 30
0.0
 40
101.4506960327195
  0
CIRCLE
  5
86
330
1F
100
AcDbEntity
  8
0
  6
Continuous
 62
     7
370
    25
100
AcDbCircle
 10
139.395004093
 20
107.5851680021
 30
0.0
 40
66.24930396728055
  0
CIRCLE
  5
87
330
1F
100
AcDbEntity
  8
0
  6
Continuous
 62
     7
370
    25
100
AcDbCircle
 10
139.395004093
 20
107.5851680021
 30
0.0
 40
65.40000000000003
  0
INSERT
  5
93
330
1F
100
AcDbEntity
  8
FORMAT
 62
     7
100
AcDbBlockReference
  2
SW_CENTERMARKSYMBOL_0
 10
139.395004093
 20
107.5851680021
 30
0.0
  0
LINE
  5
94
330
1F
100
AcDbEntity
  8
0
  6
Continuous
 62
     7
370
    25
100
AcDbLine
 10
-271.3013744458
 20
232.5851680021
 30
0.0
 11
-399.6920703455
 21
232.5851680021
 31
0.0
  0
LINE
  5
95
330
1F
100
AcDbEntity
  8
0
  6
Continuous
 62
     7
370
    25
100
AcDbLine
 10
-399.6920703455
 20
-17.4148319979
 30
0.0
 11
-271.3013744458
 21
-17.4148319979
 31
0.0
  0
ARC
  5
96
330
1F
100
AcDbEntity
  8
0
  6
Continuous
 62
     7
370
    25
100
AcDbCircle
 10
-271.3013742726
 20
230.5851680021
 30
0.0
 40
1.999999999999972
100
AcDbArc
 50
56.1130405359
 51
90.0
  0
ARC
  5
97
330
1F
100
AcDbEntity
  8
0
  6
Continuous
 62
     7
370
    25
100
AcDbCircle
 10
-271.3013742726
 20
-15.4148319979
 30
0.0
 40
1.999999999999989
100
AcDbArc
 50
270.0
 51
303.8869594641
  0
LINE
  5
98
330
1F
100
AcDbEntity
  8
0
  6
Continuous
 62
     7
370
    25
100
AcDbLine
 10
-270.1862628116
 20
-17.0751078744
 30
0.0
 11
-204.1978767618
 21
27.2454456668
 31
0.0
  0
LINE
  5
99
330
1F
100
AcDbEntity
  8
0
  6
Continuous
 62
     7
370
    25
100
AcDbLine
 10
-204.1978767618
 20
187.9248903375
 30
0.0
 11
-270.1862628116
 21
232.2454438786
 31
0.0
  0
ARC
  5
9A
330
1F
100
AcDbEntity
  8
0
  6
Continuous
 62
     7
370
    25
100
AcDbCircle
 10
-203.0827649307
 20
189.5851680021
 30
0.0
 40
2.0
100
AcDbArc
 50
236.113040536
 51
270.0
  0
ARC
  5
9B
330
1F
100
AcDbEntity
  8
0
  6
Continuous
 62
     7
370
    25
100
AcDbCircle
 10
-203.0827649307
 20
25.5851680021
 30
0.0
 40
2.0
100
AcDbArc
 50
90.0
 51
123.8869594641
  0
LINE
  5
9C
330
1F
100
AcDbEntity
  8
0
  6
Continuous
 62
     7
370
    25
100
AcDbLine
 10
-105.6920705839
 20
187.585166214
 30
0.0
 11
-203.082763265
 21
187.585166214
 31
0.0
  0
LINE
  5
9D
330
1F
100
AcDbEntity
  8
0
  6
Continuous
 62
     7
370
    25
100
AcDbLine
 10
-203.082763265
 20
27.5851697903
 30
0.0
 11
-105.6920705839
 21
27.5851697903
 31
0.0
  0
LINE
  5
9E
330
1F
100
AcDbEntity
  8
0
  6
Continuous
 62
     7
370
    25
100
AcDbLine
 10
-399.6920703455
 20
232.5851680021
 30
0.0
 11
-399.6920703455
 21
-17.4148319979
 31
0.0
  0
LINE
  5
9F
330
1F
100
AcDbEntity
  8
0
  6
Continuous
 62
     7
370
    25
100
AcDbLine
 10
-105.6920705839
 20
187.585166214
 30
0.0
 11
-105.6920705839
 21
27.5851697903
 31
0.0
  0
LINE
  5
A0
330
1F
100
AcDbEntity
  8
0
  6
Continuous
 62
     1
370
    25
100
AcDbLine
 10
-271.3013744458
 20
232.5851680021
 30
0.0
 11
-271.3013744458
 21
-17.4148319979
 31
0.0
  0
LINE
  5
A1
330
1F
100
AcDbEntity
  8
0
  6
Continuous
 62
     1
370
    25
100
AcDbLine
 10
-270.1862628116
 20
232.2454438786
 30
0.0
 11
-270.1862628116
 21
-17.0751078744
 31
0.0
  0
LINE
  5
A2
330
1F
100
AcDbEntity
  8
0
  6
Continuous
 62
     1
370
    25
100
AcDbLine
 10
-204.1978767618
 20
187.9248903375
 30
0.0
 11
-204.1978767618
 21
27.2454456668
 31
0.0
  0
LINE
  5
A3
330
1F
100
AcDbEntity
  8
0
  6
Continuous
 62
     1
370
    25
100
AcDbLine
 10
-203.082763265
 20
187.585166214
 30
0.0
 11
-203.082763265
 21
27.5851697903
 31
0.0
  0
LINE
  5
A4
330
1F
100
AcDbEntity
  8
0
  6
Continuous
 62
     7
370
    25
100
AcDbLine
 10
503.7246496972
 20
-17.4148319979
 30
0.0
 11
632.1153455969
 21
-17.4148319979
 31
0.0
  0
LINE
  5
A5
330
1F
100
AcDbEntity
  8
0
  6
Continuous
 62
     7
370
    25
100
AcDbLine
 10
632.1153455969
 20
232.5851680021
 30
0.0
 11
503.7246496972
 21
232.5851680021
 31
0.0
  0
ARC
  5
A6
330
1F
100
AcDbEntity
  8
0
  6
Continuous
 62
     7
370
    25
100
AcDbCircle
 10
503.724649524
 20
-15.4148319979
 30
0.0
 40
1.999999999999996
100
AcDbArc
 50
236.1130405359
 51
270.0
  0
ARC
  5
A7
330
1F
100
AcDbEntity
  8
0
  6
Continuous
 62
     7
370
    25
100
AcDbCircle
 10
503.724649524
 20
230.5851680021
 30
0.0
 40
1.999999999999991
100
AcDbArc
 50
90.0
 51
123.8869594641
  0
LINE
  5
A8
330
1F
100
AcDbEntity
  8
0
  6
Continuous
 62
     7
370
    25
100
AcDbLine
 10
502.609538063
 20
232.2454438786
 30
0.0
 11
436.6211520132
 21
187.9248903375
 31
0.0
  0
LINE
  5
A9
330
1F
100
AcDbEntity
  8
0
  6
Continuous
 62
     7
370
    25
100
AcDbLine
 10
436.6211520132
 20
27.2454456668
 30
0.0
 11
502.609538063
 21
-17.0751078744
 31
0.0
  0
ARC
  5
AA
330
1F
100
AcDbEntity
  8
0
  6
Continuous
 62
     7
370
    25
100
AcDbCircle
 10
435.5060401821
 20
25.5851680021
 30
0.0
 40
2.0
100
AcDbArc
 50
56.1130405359
 51
90.0
  0
ARC
  5
AB
330
1F
100
AcDbEntity
  8
0
  6
Continuous
 62
     7
370
    25
100
AcDbCircle
 10
435.5060401821
 20
189.5851680021
 30
0.0
 40
2.0
100
AcDbArc
 50
270.0
 51
303.8869594641
  0
LINE
  5
AC
330
1F
100
AcDbEntity
  8
0
  6
Continuous
 62
     7
370
    25
100
AcDbLine
 10
338.1153458353
 20
27.5851697903
 30
0.0
 11
435.5060385164
 21
27.5851697903
 31
0.0
  0
LINE
  5
AD
330
1F
100
AcDbEntity
  8
0
  6
Continuous
 62
     7
370
    25
100
AcDbLine
 10
435.5060385164
 20
187.585166214
 30
0.0
 11
338.1153458353
 21
187.585166214
 31
0.0
  0
LINE
  5
AE
330
1F
100
AcDbEntity
  8
0
  6
Continuous
 62
     7
370
    25
100
AcDbLine
 10
632.1153455969
 20
107.5851680021
 30
0.0
 11
632.1153455969
 21
232.5851680021
 31
0.0
  0
LINE
  5
AF
330
1F
100
AcDbEntity
  8
0
  6
Continuous
 62
     7
370
    25
100
AcDbLine
 10
632.1153455969
 20
-17.4148319979
 30
0.0
 11
632.1153455969
 21
107.5851680021
 31
0.0
  0
LINE
  5
B0
330
1F
100
AcDbEntity
  8
0
  6
Continuous
 62
     7
370
    25
100
AcDbLine
 10
338.1153458353
 20
107.5851680021
 30
0.0
 11
338.1153458353
 21
187.585166214
 31
0.0
  0
LINE
  5
B1
330
1F
100
AcDbEntity
  8
0
  6
Continuous
 62
     7
370
    25
100
AcDbLine
 10
338.1153458353
 20
27.5851697903
 30
0.0
 11
338.1153458353
 21
107.5851680021
 31
0.0
  0
LINE
  5
B2
330
1F
100
AcDbEntity
  8
0
  6
Continuous
 62
     1
370
    25
100
AcDbLine
 10
503.7246496972
 20
107.5851680021
 30
0.0
 11
503.7246496972
 21
232.5851680021
 31
0.0
  0
LINE
  5
B3
330
1F
100
AcDbEntity
  8
0
  6
Continuous
 62
     1
370
    25
100
AcDbLine
 10
503.7246496972
 20
-17.4148319979
 30
0.0
 11
503.7246496972
 21
107.5851680021
 31
0.0
  0
LINE
  5
B4
330
1F
100
AcDbEntity
  8
0
  6
Continuous
 62
     1
370
    25
100
AcDbLine
 10
502.609538063
 20
107.5851680021
 30
0.0
 11
502.609538063
 21
232.2454438786
 31
0.0
  0
LINE
  5
B5
330
1F
100
AcDbEntity
  8
0
  6
Continuous
 62
     1
370
    25
100
AcDbLine
 10
502.609538063
 20
-17.0751078744
 30
0.0
 11
502.609538063
 21
107.5851680021
 31
0.0
  0
LINE
  5
B6
330
1F
100
AcDbEntity
  8
0
  6
Continuous
 62
     1
370
    25
100
AcDbLine
 10
436.6211520132
 20
107.5851680021
 30
0.0
 11
436.6211520132
 21
187.9248903375
 31
0.0
  0
LINE
  5
B7
330
1F
100
AcDbEntity
  8
0
  6
Continuous
 62
     1
370
    25
100
AcDbLine
 10
436.6211520132
 20
27.2454456668
 30
0.0
 11
436.6211520132
 21
107.5851680021
 31
0.0
  0
LINE
  5
B8
330
1F
100
AcDbEntity
  8
0
  6
Continuous
 62
     1
370
    25
100
AcDbLine
 10
435.5060385164
 20
107.5851680021
 30
0.0
 11
435.5060385164
 21
187.585166214
 31
0.0
  0
LINE
  5
B9
330
1F
100
AcDbEntity
  8
0
  6
Continuous
 62
     1
370
    25
100
AcDbLine
 10
435.5060385164
 20
27.5851697903
 30
0.0
 11
435.5060385164
 21
107.5851680021
 31
0.0
  0
LINE
  5
BA
330
1F
100
AcDbEntity
  8
0
  6
Continuous
 62
     7
370
    25
100
AcDbLine
 10
264.395004093
 20
459.7204410491
 30
0.0
 11
264.395004093
 21
588.1111369488
 31
0.0
  0
LINE
  5
BB
330
1F
100
AcDbEntity
  8
0
  6
Continuous
 62
     7
370
    25
100
AcDbLine
 10
14.395004093
 20
588.1111369488
 30
0.0
 11
14.395004093
 21
459.7204410491
 31
0.0
  0
ARC
  5
BC
330
1F
100
AcDbEntity
  8
0
  6
Continuous
 62
     7
370
    25
100
AcDbCircle
 10
262.395004093
 20
459.7204408759
 30
0.0
 40
2.000000000000006
100
AcDbArc
 50
326.113040536
 51
0.0
  0
ARC
  5
BD
330
1F
100
AcDbEntity
  8
0
  6
Continuous
 62
     7
370
    25
100
AcDbCircle
 10
16.395004093
 20
459.7204408759
 30
0.0
 40
1.999999999999988
100
AcDbArc
 50
180.0
 51
213.8869594641
  0
LINE
  5
BE
330
1F
100
AcDbEntity
  8
0
  6
Continuous
 62
     7
370
    25
100
AcDbLine
 10
14.7347282165
 20
458.605329415
 30
0.0
 11
59.0552817577
 21
392.6169433651
 31
0.0
  0
LINE
  5
BF
330
1F
100
AcDbEntity
  8
0
  6
Continuous
 62
     7
370
    25
100
AcDbLine
 10
219.7347264284
 20
392.6169433651
 30
0.0
 11
264.0552799696
 21
458.605329415
 31
0.0
  0
ARC
  5
C0
330
1F
100
AcDbEntity
  8
0
  6
Continuous
 62
     7
370
    25
100
AcDbCircle
 10
221.395004093
 20
391.5018315341
 30
0.0
 40
2.000000000000028
100
AcDbArc
 50
146.1130405359
 51
180.0
  0
ARC
  5
C1
330
1F
100
AcDbEntity
  8
0
  6
Continuous
 62
     7
370
    25
100
AcDbCircle
 10
57.395004093
 20
391.5018315341
 30
0.0
 40
2.000000000000008
100
AcDbArc
 50
0.0
 51
33.8869594641
  0
LINE
  5
C2
330
1F
100
AcDbEntity
  8
0
  6
Continuous
 62
     7
370
    25
100
AcDbLine
 10
219.3950023049
 20
294.1111371873
 30
0.0
 11
219.3950023049
 21
391.5018298683
 31
0.0
  0
LINE
  5
C3
330
1F
100
AcDbEntity
  8
0
  6
Continuous
 62
     7
370
    25
100
AcDbLine
 10
59.3950058812
 20
391.5018298683
 30
0.0
 11
59.3950058812
 21
294.1111371873
 31
0.0
  0
LINE
  5
C4
330
1F
100
AcDbEntity
  8
0
  6
Continuous
 62
     7
370
    25
100
AcDbLine
 10
264.395004093
 20
588.1111369488
 30
0.0
 11
14.395004093
 21
588.1111369488
 31
0.0
  0
LINE
  5
C5
330
1F
100
AcDbEntity
  8
0
  6
Continuous
 62
     7
370
    25
100
AcDbLine
 10
219.3950023049
 20
294.1111371873
 30
0.0
 11
59.3950058812
 21
294.1111371873
 31
0.0
  0
LINE
  5
C6
330
1F
100
AcDbEntity
  8
0
  6
Continuous
 62
     1
370
    25
100
AcDbLine
 10
264.395004093
 20
459.7204410491
 30
0.0
 11
14.395004093
 21
459.7204410491
 31
0.0
  0
LINE
  5
C7
330
1F
100
AcDbEntity
  8
0
  6
Continuous
 62
     1
370
    25
100
AcDbLine
 10
264.0552799696
 20
458.605329415
 30
0.0
 11
14.7347282165
 21
458.605329415
 31
0.0
  0
LINE
  5
C8
330
1F
100
AcDbEntity
  8
0
  6
Continuous
 62
     1
370
    25
100
AcDbLine
 10
219.7347264284
 20
392.6169433651
 30
0.0
 11
59.0552817577
 21
392.6169433651
 31
0.0
  0
LINE
  5
C9
330
1F
100
AcDbEntity
  8
0
  6
Continuous
 62
     1
370
    25
100
AcDbLine
 10
219.3950023049
 20
391.5018298683
 30
0.0
 11
59.3950058812
 21
391.5018298683
 31
0.0
  0
LINE
  5
CA
330
1F
100
AcDbEntity
  8
0
  6
Continuous
 62
     7
370
    25
100
AcDbLine
 10
14.395004093
 20
-311.8173861394
 30
0.0
 11
14.395004093
 21
-440.2080820391
 31
0.0
  0
LINE
  5
CB
330
1F
100
AcDbEntity
  8
0
  6
Continuous
 62
     7
370
    25
100
AcDbLine
 10
264.395004093
 20
-440.2080820391
 30
0.0
 11
264.395004093
 21
-311.8173861394
 31
0.0
  0
ARC
  5
CC
330
1F
100
AcDbEntity
  8
0
  6
Continuous
 62
     7
370
    25
100
AcDbCircle
 10
16.395004093
 20
-311.8173859662
 30
0.0
 40
1.999999999999996
100
AcDbArc
 50
146.1130405359
 51
180.0
  0
ARC
  5
CD
330
1F
100
AcDbEntity
  8
0
  6
Continuous
 62
     7
370
    25
100
AcDbCircle
 10
262.395004093
 20
-311.8173859662
 30
0.0
 40
2.000000000000038
100
AcDbArc
 50
0.0
 51
33.8869594641
  0
LINE
  5
CE
330
1F
100
AcDbEntity
  8
0
  6
Continuous
 62
     7
370
    25
100
AcDbLine
 10
264.0552799696
 20
-310.7022745052
 30
0.0
 11
219.7347264284
 21
-244.7138884554
 31
0.0
  0
LINE
  5
CF
330
1F
100
AcDbEntity
  8
0
  6
Continuous
 62
     7
370
    25
100
AcDbLine
 10
59.0552817577
 20
-244.7138884554
 30
0.0
 11
14.7347282165
 21
-310.7022745052
 31
0.0
  0
ARC
  5
D0
330
1F
100
AcDbEntity
  8
0
  6
Continuous
 62
     7
370
    25
100
AcDbCircle
 10
57.395004093
 20
-243.5987766243
 30
0.0
 40
2.000000000000008
100
AcDbArc
 50
326.1130405359
 51
0.0
  0
ARC
  5
D1
330
1F
100
AcDbEntity
  8
0
  6
Continuous
 62
     7
370
    25
100
AcDbCircle
 10
221.395004093
 20
-243.5987766243
 30
0.0
 40
2.000000000000028
100
AcDbArc
 50
180.0
 51
213.8869594641
  0
LINE
  5
D2
330
1F
100
AcDbEntity
  8
0
  6
Continuous
 62
     7
370
    25
100
AcDbLine
 10
59.3950058812
 20
-146.2080822775
 30
0.0
 11
59.3950058812
 21
-243.5987749586
 31
0.0
  0
LINE
  5
D3
330
1F
100
AcDbEntity
  8
0
  6
Continuous
 62
     7
370
    25
100
AcDbLine
 10
219.3950023049
 20
-243.5987749586
 30
0.0
 11
219.3950023049
 21
-146.2080822775
 31
0.0
  0
LINE
  5
D4
330
1F
100
AcDbEntity
  8
0
  6
Continuous
 62
     7
370
    25
100
AcDbLine
 10
14.395004093
 20
-440.2080820391
 30
0.0
 11
264.395004093
 21
-440.2080820391
 31
0.0
  0
LINE
  5
D5
330
1F
100
AcDbEntity
  8
0
  6
Continuous
 62
     7
370
    25
100
AcDbLine
 10
59.3950058812
 20
-146.2080822775
 30
0.0
 11
219.3950023049
 21
-146.2080822775
 31
0.0
  0
LINE
  5
D6
330
1F
100
AcDbEntity
  8
0
  6
Continuous
 62
     1
370
    25
100
AcDbLine
 10
14.395004093
 20
-311.8173861394
 30
0.0
 11
264.395004093
 21
-311.8173861394
 31
0.0
  0
LINE
  5
D7
330
1F
100
AcDbEntity
  8
0
  6
Continuous
 62
     1
370
    25
100
AcDbLine
 10
14.7347282165
 20
-310.7022745052
 30
0.0
 11
264.0552799696
 21
-310.7022745052
 31
0.0
  0
LINE
  5
D8
330
1F
100
AcDbEntity
  8
0
  6
Continuous
 62
     1
370
    25
100
AcDbLine
 10
59.0552817577
 20
-244.7138884554
 30
0.0
 11
219.7347264284
 21
-244.7138884554
 31
0.0
  0
LINE
  5
D9
330
1F
100
AcDbEntity
  8
0
  6
Continuous
 62
     1
370
    25
100
AcDbLine
 10
59.3950058812
 20
-243.5987749586
 30
0.0
 11
219.3950023049
 21
-243.5987749586
 31
0.0
  0
LINE
  5
DA
330
1F
100
AcDbEntity
  8
0
  6
Continuous
 62
     7
370
    25
100
AcDbLine
 10
576.9001889711
 20
-152.8956543506
 30
0.0
 11
486.1142572591
 21
-100.4860515431
 31
0.0
  0
LINE
  5
DB
330
1F
100
AcDbEntity
  8
0
  6
Continuous
 62
     7
370
    25
100
AcDbLine
 10
361.1244167889
 20
-316.9982637914
 30
0.0
 11
451.9103485008
 21
-369.4078665989
 31
0.0
  0
SPLINE
  5
DC
330
1F
100
AcDbEntity
  8
0
  6
Continuous
 62
     7
370
    25
100
AcDbSpline
210
0.0
220
0.0
230
1.0
 70
     8
 71
     3
 72
    13
 73
     9
 74
     0
 42
0.000000001
 43
0.00000001
 40
0.0
 40
0.0
 40
0.0
 40
0.0
 40
0.0774041638827093
 40
0.2795015271079719
 40
0.4812055372429933
 40
0.6824860785104931
 40
0.883340409691973
 40
1.0
 40
1.0
 40
1.0
 40
1.0
 10
594.7046325331961
 20
-171.7801452970898
 30
0.0
 10
594.4760106472824
 20
-171.3396563671495
 30
0.0
 10
593.6504715155633
 20
-169.7490787752386
 30
0.0
 10
592.0342321738852
 20
-167.220032365648
 30
0.0
 10
589.8671372830019
 20
-164.1993868736086
 30
0.0
 10
587.5085492204049
 20
-161.4255117897133
 30
0.0
 10
585.3615209777882
 20
-159.1978164436379
 30
0.0
 10
583.9361449512782
 20
-157.9928504745313
 30
0.0
 10
583.4124394630038
 20
-157.5501270952488
 30
0.0
  0
SPLINE
  5
DD
330
1F
100
AcDbEntity
  8
0
  6
Continuous
 62
     7
370
    25
100
AcDbSpline
210
0.0
220
0.0
230
1.0
 70
     8
 71
     3
 72
    13
 73
     9
 74
     0
 42
0.000000001
 43
0.00000001
 40
0.0
 40
0.0
 40
0.0
 40
0.0
 40
0.1227974257724601
 40
0.3142378399017532
 40
0.5059797010722097
 40
0.6980847752776694
 40
0.890581568650863
 40
1.0
 40
1.0
 40
1.0
 40
1.0
 10
459.4330881250739
 20
-372.8042486275097
 30
0.0
 10
460.1462226762781
 20
-373.0529950925599
 30
0.0
 10
461.9711295057175
 20
-373.6895357314931
 30
0.0
 10
465.0430125508312
 20
-374.4237887541343
 30
0.0
 10
468.6229800262815
 20
-375.0425210439417
 30
0.0
 10
472.3159554909455
 20
-375.3801048703769
 30
0.0
 10
475.5453472011457
 20
-375.4877050554466
 30
0.0
 10
477.572329301246
 20
-375.377221395674
 30
0.0
 10
478.3069368453661
 20
-375.3371805240911
 30
0.0
  0
LINE
  5
DE
330
1F
100
AcDbEntity
  8
0
  6
Continuous
 62
     7
370
    25
100
AcDbLine
 10
489.9540761857
 20
-373.7057903939
 30
0.0
 11
545.5883982747
 21
-360.7879424546
 31
0.0
  0
LINE
  5
DF
330
1F
100
AcDbEntity
  8
0
  6
Continuous
 62
     7
370
    25
100
AcDbLine
 10
616.2821568044
 20
-238.3294927059
 30
0.0
 11
599.6470577979
 21
-183.691389356
 31
0.0
  0
LINE
  5
E0
330
1F
100
AcDbEntity
  8
0
  6
Continuous
 62
     7
370
    25
100
AcDbLine
 10
671.5054786318
 20
-259.4702430617
 30
0.0
 11
612.3153533745
 21
-225.3005110739
 31
0.0
  0
LINE
  5
E1
330
1F
100
AcDbEntity
  8
0
  6
Continuous
 62
     7
370
    25
100
AcDbLine
 10
532.3218571594
 20
-363.8683249661
 30
0.0
 11
591.5119824167
 21
-398.038056954
 31
0.0
  0
LWPOLYLINE
  5
E2
330
1F
100
AcDbEntity
  8
0
  6
Continuous
 62
     7
370
    25
100
AcDbPolyline
 90
      126
 70
   128
 43
0.0
 10
335.2309893757
 20
-259.7676646561
 10
335.3426258407
 20
-254.5749014275
 10
335.6772612811
 20
-249.2663581158
 10
336.2340422234
 20
-243.8554484459
 10
337.0115672847
 20
-238.355840086
 10
338.0078713683
 20
-232.7814242272
 10
339.2204362
 20
-227.1462828851
 10
340.6462008648
 20
-221.4646516378
 10
342.2815670757
 20
-215.7508816033
 10
344.1223939047
 20
-210.0194090206
 10
346.1640399301
 20
-204.2847065839
 10
348.401342163
 20
-198.5612682315
 10
350.8286529257
 20
-192.8635422283
 10
353.4398398518
 20
-187.2059311662
 10
356.2283016911
 20
-181.6027220024
 10
359.1870051882
 20
-176.0680678124
 10
362.3084692775
 20
-170.6159543276
 10
365.5848072301
 20
-165.2601512702
 10
369.0077477268
 20
-160.014181936
 10
372.5686401271
 20
-154.8913079861
 10
376.2584913471
 20
-149.9044655714
 10
380.067981665
 20
-145.0662501246
 10
383.9874857942
 20
-140.3888859442
 10
388.0071018594
 20
-135.8841912152
 10
392.1166803729
 20
-131.563543031
 10
396.3058347705
 20
-127.4378469758
 10
400.5639861933
 20
-123.5175416916
 10
404.8803792924
 20
-119.8125167494
 10
409.2441072536
 20
-116.3321347055
 10
413.644147359
 20
-113.0851862371
 10
418.06938667
 20
-110.0798813994
 10
422.508645488
 20
-107.3238056638
 10
426.9507098704
 20
-104.8239193979
 10
431.384359124
 20
-102.58653591
 10
435.7983933002
 20
-100.617317744
 10
440.181661594
 20
-98.9212298664
 10
444.5230925553
 20
-97.5025587281
 10
448.8117174667
 20
-96.3648866009
 10
453.0367072222
 20
-95.5110885396
 10
457.1873841813
 20
-94.943325538
 10
461.2532643154
 20
-94.6630262828
 10
465.2240795984
 20
-94.6709046455
 10
469.0897964464
 20
-94.966930787
 10
472.8406552296
 20
-95.5503631009
 10
476.467170273
 20
-96.4197360453
 10
479.9601904421
 20
-97.5728373356
 10
483.3108859722
 20
-99.0067642169
 10
486.5108011517
 20
-100.7178930505
 10
489.5518437857
 20
-102.7018975642
 10
492.4263326111
 20
-104.9537701496
 10
495.1270131017
 20
-107.4678249052
 10
497.6470574678
 20
-110.2377037208
 10
499.9801015355
 20
-113.2564158243
 10
502.1202500143
 20
-116.5163316987
 10
504.0620975708
 20
-120.0092195865
 10
505.8007446339
 20
-123.7262515747
 10
507.3317921263
 20
-127.6580400967
 10
508.6513730747
 20
-131.7946592278
 10
509.756157878
 20
-136.1256507701
 10
510.6433543075
 20
-140.6400774842
 10
511.3107180436
 20
-145.3265382998
 10
511.7565632122
 20
-150.1731934121
 10
511.9797729219
 20
-155.1677952711
 10
511.9797729219
 20
-160.2977323066
 10
511.7565632122
 20
-165.5500466109
 10
511.3107180436
 20
-170.9114635978
 10
510.6433543075
 20
-176.3684461821
 10
509.756157878
 20
-181.9072080901
 10
508.6513730747
 20
-187.5137570152
 10
507.3317921263
 20
-193.1739318796
 10
505.8007446339
 20
-198.8734302096
 10
504.0620975708
 20
-204.5978613682
 10
502.1202500143
 20
-210.3327587222
 10
499.9801015355
 20
-216.0636374343
 10
497.6470574678
 20
-221.7760248818
 10
495.1270131017
 20
-227.4554849904
 10
492.4263326111
 20
-233.0876790689
 10
489.5518437857
 20
-238.6583658092
 10
486.5108011517
 20
-244.1534834119
 10
483.3108859722
 20
-249.5591556712
 10
479.9601904421
 20
-254.8617132654
 10
476.467170273
 20
-260.0477697991
 10
472.8406552296
 20
-265.1042278881
 10
469.0897964464
 20
-270.0183095725
 10
465.2240795984
 20
-274.7775973835
 10
461.2532643154
 20
-279.370081486
 10
457.1873841813
 20
-283.7841475112
 10
453.0367072222
 20
-288.0086541203
 10
448.8117174667
 20
-292.032925398
 10
444.5230925553
 20
-295.8467941971
 10
440.181661594
 20
-299.4406325523
 10
435.7983933002
 20
-302.8053585244
 10
431.384359124
 20
-305.9324757396
 10
426.9507098704
 20
-308.8140747194
 10
422.508645488
 20
-311.4428868219
 10
418.06938667
 20
-313.8122702192
 10
413.644147359
 20
-315.916237936
 10
409.2441072536
 20
-317.7494676386
 10
404.8803792924
 20
-319.3073386565
 10
400.5639861933
 20
-320.5859151076
 10
396.3058347705
 20
-321.5819668086
 10
392.1166803729
 20
-322.2929654689
 10
388.0071018594
 20
-322.71713564
 10
383.9874857942
 20
-322.8533908346
 10
380.067981665
 20
-322.7013897967
 10
376.2584913471
 20
-322.2615182496
 10
372.5686401271
 20
-321.5348873723
 10
369.0077477268
 20
-320.5233322759
 10
365.5848072301
 20
-319.2294059176
 10
362.3084692775
 20
-317.6563821415
 10
359.1870051882
 20
-315.8082343817
 10
356.2283016911
 20
-313.6896265369
 10
353.4398398518
 20
-311.305906884
 10
350.8286529257
 20
-308.6631080746
 10
348.401342163
 20
-305.7678954249
 10
346.1640399301
 20
-302.627591247
 10
344.1223939047
 20
-299.2501231362
 10
342.2815670757
 20
-295.6440239704
 10
340.6462008648
 20
-291.8184075724
 10
339.2204362
 20
-287.7829291678
 10
338.0078713683
 20
-283.5477853805
 10
337.0115672847
 20
-279.1236777317
 10
336.2340422234
 20
-274.5217806992
 10
335.6772612811
 20
-269.753716622
 10
335.3426258407
 20
-264.8315351659
 10
335.2309893757
 20
-259.7676646561
  0
LWPOLYLINE
  5
E3
330
1F
100
AcDbEntity
  8
0
  6
Continuous
 62
     7
370
    25
100
AcDbPolyline
 90
      114
 70
   128
 43
0.0
 10
351.2823110664
 20
-250.5014338814
 10
351.3941055821
 20
-245.7946182422
 10
351.729146686
 20
-240.9732742651
 10
352.2863965119
 20
-236.0523057848
 10
353.0641270391
 20
-231.046925319
 10
354.0599411656
 20
-225.9726019789
 10
355.2707621714
 20
-220.8450177416
 10
356.6928442554
 20
-215.6800263859
 10
358.3217883402
 20
-210.4935911361
 10
360.1525684141
 20
-205.3017420782
 10
362.1795209945
 20
-200.120524448
 10
364.3963767375
 20
-194.9659590893
 10
366.7962867804
 20
-189.853975536
 10
369.371838546
 20
-184.8003694279
 10
372.1150610118
 20
-179.8207690503
 10
375.0174826611
 20
-174.9305653773
 10
378.0701314835
 20
-170.1448664436
 10
381.263566585
 20
-165.4784730132
 10
384.5879229689
 20
-160.9458040577
 10
388.0329220725
 20
-156.5608724228
 10
391.5879191824
 20
-152.3372270375
 10
395.2419218735
 20
-148.2879301018
 10
398.9836374248
 20
-144.4254871289
 10
402.8015004775
 20
-140.7618492287
 10
406.6837099142
 20
-137.3083370656
 10
410.6182670537
 20
-134.0756188078
 10
414.5930098962
 20
-131.0736903596
 10
418.5956526354
 20
-128.3118282152
 10
422.6138231131
 20
-125.7985739212
 10
426.6351017564
 20
-123.5416933475
 10
430.6470586197
 20
-121.5481613866
 10
434.6372930633
 20
-119.8241451319
 10
438.5934721947
 20
-118.3749634345
 10
442.5033668424
 20
-117.2051087222
 10
446.3548907391
 20
-116.3181878769
 10
450.1361426685
 20
-115.7169404903
 10
453.8354321484
 20
-115.4032301205
 10
457.4413242119
 20
-115.378024524
 10
460.9426762862
 20
-115.6414047855
 10
464.3286618993
 20
-116.1925516309
 10
467.5888180962
 20
-117.0297667253
 10
470.7130665117
 20
-118.1504544237
 10
473.6917528834
 20
-119.5511597976
 10
476.5156654906
 20
-121.2275519071
 10
479.1760799357
 20
-123.1744405347
 10
481.664772315
 20
-125.3858172518
 10
483.9740508284
 20
-127.8548432546
 10
486.0967768537
 20
-130.5738858674
 10
488.0263860191
 20
-133.5345428804
 10
489.7569145455
 20
-136.7276668863
 10
491.2830203199
 20
-140.1433774499
 10
492.599977627
 20
-143.7711265075
 10
493.7037245642
 20
-147.5996953295
 10
494.5908419683
 20
-151.6172523132
 10
495.2585902944
 20
-155.8113796032
 10
495.7049043467
 20
-160.1691133946
 10
495.9284090843
 20
-164.6769825288
 10
495.9284090843
 20
-169.3210552602
 10
495.7049043467
 20
-174.0869774717
 10
495.2585902944
 20
-178.9600144994
 10
494.5908419683
 20
-183.9251075961
 10
493.7037245642
 20
-188.966908533
 10
492.599977627
 20
-194.0698364431
 10
491.2830203199
 20
-199.2181120422
 10
489.7569145455
 20
-204.3958268276
 10
488.0263860191
 20
-209.586976541
 10
486.0967768537
 20
-214.7755128746
 10
483.9740508284
 20
-219.9454027884
 10
481.664772315
 20
-225.0806650103
 10
479.1760799357
 20
-230.1654247869
 10
476.5156654906
 20
-235.1839625509
 10
473.6917528834
 20
-240.1207747567
 10
470.7130665117
 20
-244.9605982117
 10
467.5888180962
 20
-249.6884663496
 10
464.3286618993
 20
-254.2897776679
 10
460.9426762862
 20
-258.7503002888
 10
457.4413242119
 20
-263.0562556066
 10
453.8354321484
 20
-267.194324369
 10
450.1361426685
 20
-271.1517227195
 10
446.3548907391
 20
-274.9162158831
 10
442.5033668424
 20
-278.4761698747
 10
438.5934721947
 20
-281.8205834337
 10
434.6372930633
 20
-284.939108935
 10
430.6470586197
 20
-287.8221193055
 10
426.6351017564
 20
-290.4606941419
 10
422.6138231131
 20
-292.8466830634
 10
418.5956526354
 20
-294.9727096532
 10
414.5930098962
 20
-296.8322004471
 10
410.6182670537
 20
-298.4194124022
 10
406.6837099142
 20
-299.7294371229
 10
402.8015004775
 20
-300.7582285667
 10
398.9836374248
 20
-301.5026015201
 10
395.2419218735
 20
-301.9602513669
 10
391.5879191824
 20
-302.1297761383
 10
388.0329220725
 20
-302.010643049
 10
384.5879229689
 20
-301.6032227154
 10
381.263566585
 20
-300.9087739419
 10
378.0701314835
 20
-299.9294421984
 10
375.0174826611
 20
-298.6682565737
 10
372.1150610118
 20
-297.1291176075
 10
369.371838546
 20
-295.3167744719
 10
366.7962867804
 20
-293.2368371361
 10
364.3963767375
 20
-290.8957307386
 10
362.1795209945
 20
-288.3006925397
 10
360.1525684141
 20
-285.4597445447
 10
358.3217883402
 20
-282.3816691674
 10
356.6928442554
 20
-279.0759727252
 10
355.2707621714
 20
-275.5528823948
 10
354.0599411656
 20
-271.8232823338
 10
353.0641270391
 20
-267.8987015112
 10
352.2863965119
 20
-263.7912695988
 10
351.729146686
 20
-259.5136880726
 10
351.3941055821
 20
-255.0791743202
 10
351.2823110664
 20
-250.5014338814
  0
ARC
  5
E4
330
1F
100
AcDbEntity
  8
0
  6
Continuous
 62
     7
370
    25
100
AcDbCircle
 10
555.8180231044
 20
-189.3738250595
 30
0.0
 40
42.13210955903476
100
AcDbArc
 50
49.4070939822
 51
59.9746977569
  0
ARC
  5
E5
330
1F
100
AcDbEntity
  8
0
  6
Continuous
 62
     7
370
    25
100
AcDbCircle
 10
472.935836872
 20
-332.9571352236
 30
0.0
 40
42.08000688020593
100
AcDbArc
 50
240.0228184104
 51
250.9348970126
  0
ARC
  5
E6
330
1F
100
AcDbEntity
  8
0
  6
Continuous
 62
     7
370
    25
100
AcDbCircle
 10
524.3704803572
 20
-207.4898518774
 30
0.0
 40
78.89464570760127
100
AcDbArc
 50
0.8868091731
 51
26.7575285807
  0
LWPOLYLINE
  5
E7
330
1F
100
AcDbEntity
  8
0
  6
Continuous
 62
     7
370
    25
100
AcDbPolyline
 90
       10
 70
   128
 43
0.0
 10
513.0772885463
 20
-364.5896344778
 10
509.6589046836
 20
-366.3915076346
 10
505.245692371
 20
-368.4897551374
 10
500.8576094582
 20
-370.3180106335
 10
496.5057418836
 20
-371.8716447046
 10
492.2010800964
 20
-373.1467461806
 10
487.9545032518
 20
-374.1400886779
 10
483.7767311375
 20
-374.8491583514
 10
479.6783241731
 20
-375.2721721463
 10
478.5025298326
 20
-375.34134455
  0
ARC
  5
E8
330
1F
100
AcDbEntity
  8
0
  6
Continuous
 62
     7
370
    25
100
AcDbCircle
 10
563.5630437478
 20
-254.0481003741
 30
0.0
 40
55.01253955695521
100
AcDbArc
 50
5.6819617997
 51
16.6023529944
  0
ARC
  5
E9
330
1F
100
AcDbEntity
  8
0
  6
Continuous
 62
     7
370
    25
100
AcDbCircle
 10
533.2810762229
 20
-308.6601056455
 30
0.0
 40
53.56100770597484
100
AcDbArc
 50
283.284200786
 51
293.5078820433
  0
LWPOLYLINE
  5
EA
330
1F
100
AcDbEntity
  8
0
  6
Continuous
 62
     7
370
    25
100
AcDbPolyline
 90
       52
 70
   128
 43
0.0
 10
671.5054786318
 20
-259.4702430617
 10
672.7454231099
 20
-260.231862614
 10
675.0955419196
 20
-261.9534030546
 10
677.2736436354
 20
-263.9385767969
 10
679.2711303003
 20
-266.1795472243
 10
681.0801204536
 20
-268.6674739768
 10
682.6934754728
 20
-271.392531204
 10
684.1048311839
 20
-274.3439699261
 10
685.308613666
 20
-277.5101393287
 10
686.300070862
 20
-280.8785476023
 10
687.0752883833
 20
-284.4358999676
 10
687.6312105836
 20
-288.1681557112
 10
687.9656458265
 20
-292.0605848418
 10
688.0772717548
 20
-296.0978262649
 10
687.9656458265
 20
-300.2639482415
 10
687.6312105836
 20
-304.5425080844
 10
687.0752883833
 20
-308.9166179382
 10
686.300070862
 20
-313.369017402
 10
685.308613666
 20
-317.8821377883
 10
684.1048311839
 20
-322.4381648608
 10
682.6934754728
 20
-327.0191202016
 10
681.0801204536
 20
-331.6069174844
 10
679.2711303003
 20
-336.1834598105
 10
677.2736436354
 20
-340.7306792513
 10
675.0955419196
 20
-345.230635706
 10
672.7454231099
 20
-349.6655655682
 10
670.2325621472
 20
-354.0179684151
 10
667.5668767119
 20
-358.2706663207
 10
664.7588850767
 20
-362.4068768559
 10
661.8196718628
 20
-366.4102724017
 10
658.760832722
 20
-370.2650577108
 10
655.5944453605
 20
-373.9560170542
 10
652.3329997335
 20
-377.4685910209
 10
648.9893717031
 20
-380.7889099758
 10
645.57675455
 20
-383.9038701
 10
642.1086181437
 20
-386.8011752119
 10
638.5986490146
 20
-389.4693956979
 10
635.0606986586
 20
-391.898004439
 10
631.5087305243
 20
-394.0774134986
 10
627.9567623899
 20
-395.9990195544
 10
624.4188120339
 20
-397.6552413462
 10
620.9088429048
 20
-399.0395449563
 10
617.4407064985
 20
-400.1464649068
 10
614.0280893454
 20
-400.9716286796
 10
610.684461315
 20
-401.5117804761
 10
607.423015688
 20
-401.7647914778
 10
604.2566283265
 20
-401.7296651654
 10
601.1977891857
 20
-401.4065403547
 10
598.2585759718
 20
-400.796688152
 10
595.4505843366
 20
-399.9025157501
 10
592.7848989013
 20
-398.7275527367
 10
591.5119824167
 20
-398.038056954
  0
LWPOLYLINE
  5
EB
330
1F
100
AcDbEntity
  8
0
  6
Continuous
 62
     1
370
    25
100
AcDbPolyline
 90
       60
 70
   128
 43
0.0
 10
583.2325527623
 20
-157.380728624
 10
585.9129448136
 20
-159.8774277128
 10
588.4329891798
 20
-162.6473065284
 10
590.7660332475
 20
-165.6660186318
 10
592.9061817262
 20
-168.9259345062
 10
594.8480292827
 20
-172.418822394
 10
596.5866763458
 20
-176.1358543822
 10
598.1177238383
 20
-180.0676429042
 10
599.4373047867
 20
-184.2042620354
 10
600.54208959
 20
-188.5352535777
 10
601.4292860195
 20
-193.0496802917
 10
602.0966497555
 20
-197.7361411074
 10
602.5424949241
 20
-202.5827962196
 10
602.7657046338
 20
-207.5773980787
 10
602.7657046338
 20
-212.7073351141
 10
602.5424949241
 20
-217.9596494184
 10
602.0966497555
 20
-223.3210664054
 10
601.4292860195
 20
-228.7780489896
 10
600.54208959
 20
-234.3168108976
 10
599.4373047867
 20
-239.9233598228
 10
598.1177238383
 20
-245.5835346872
 10
596.5866763458
 20
-251.2830330171
 10
594.8480292827
 20
-257.0074641758
 10
592.9061817262
 20
-262.7423615298
 10
590.7660332475
 20
-268.4732402418
 10
588.4329891798
 20
-274.1856276893
 10
585.9129448136
 20
-279.8650877979
 10
583.2122643231
 20
-285.4972818765
 10
580.3377754977
 20
-291.0679686167
 10
577.2967328636
 20
-296.5630862195
 10
574.0968176841
 20
-301.9687584788
 10
570.7461221541
 20
-307.2713160729
 10
567.253101985
 20
-312.4573726066
 10
563.6265869416
 20
-317.5138306956
 10
559.8757281584
 20
-322.4279123801
 10
556.0100113104
 20
-327.1872001911
 10
552.0391960273
 20
-331.7796842936
 10
547.9733158933
 20
-336.1937503187
 10
543.8226389342
 20
-340.4182569278
 10
539.5976491786
 20
-344.4425282056
 10
535.3090242673
 20
-348.2563970046
 10
530.967593306
 20
-351.8502353599
 10
526.5843250121
 20
-355.2149613319
 10
522.1702908359
 20
-358.3420785472
 10
517.7366415823
 20
-361.2236775269
 10
513.2945772
 20
-363.8524896295
 10
508.8553183819
 20
-366.2218730267
 10
504.4300790709
 20
-368.3258407436
 10
500.0300389655
 20
-370.1590704462
 10
495.6663110043
 20
-371.7169414641
 10
491.3499179052
 20
-372.9955179152
 10
487.0917664824
 20
-373.9915696161
 10
482.9026120848
 20
-374.7025682765
 10
478.7930335714
 20
-375.1267384476
 10
474.7734175061
 20
-375.2629936422
 10
470.8539133769
 20
-375.1109926042
 10
467.0444230591
 20
-374.6711210571
 10
463.3545718391
 20
-373.9444901799
 10
459.7936794388
 20
-372.9329350835
 10
459.190726624
 20
-372.7289710287
  0
ARC
  5
EC
330
1F
100
AcDbEntity
  8
0
  6
Continuous
 62
     1
370
    25
100
AcDbCircle
 10
608.6569386532
 20
-315.5620920834
 30
0.0
 40
168.7048841280899
100
AcDbArc
 50
133.3348029841
 51
166.6705734388
  0
LWPOLYLINE
  5
ED
330
1F
100
AcDbEntity
  8
0
  6
Continuous
 62
     1
370
    25
100
AcDbPolyline
 90
       35
 70
   128
 43
0.0
 10
603.2556762358
 20
-206.2687898255
 10
603.3140601577
 20
-208.1781963298
 10
603.3140601577
 20
-213.2941914188
 10
603.0914615772
 20
-218.5322278996
 10
602.6468281305
 20
-223.8790745312
 10
601.981276709
 20
-229.3212267382
 10
601.0964931865
 20
-234.8449347493
 10
599.9947113462
 20
-240.4362473217
 10
598.6787128799
 20
-246.0810398789
 10
597.1518273888
 20
-251.7650494912
 10
595.4179113094
 20
-257.4739189812
 10
593.4813373773
 20
-263.1932334245
 10
591.3470051637
 20
-268.9085384023
 10
589.0202989283
 20
-274.6053977922
 10
586.5071034251
 20
-280.2694241886
 10
583.8137670229
 20
-285.8863062755
 10
580.9470859011
 20
-291.441857495
 10
577.9143093178
 20
-296.9220434241
 10
574.7230921941
 20
-302.3130213146
 10
571.3815056517
 20
-307.6011644289
 10
567.8979790603
 20
-312.773131997
 10
564.2813158427
 20
-317.8158418413
 10
560.5406513284
 20
-322.7165737958
 10
556.6854422167
 20
-327.462927119
 10
552.725419161
 20
-332.0429269544
 10
548.6705894038
 20
-336.4449984748
 10
544.531191995
 20
-340.6580231527
 10
540.3176872557
 20
-344.6713570099
 10
536.0407159479
 20
-348.4748602723
 10
531.7110834701
 20
-352.0589308283
 10
527.3397282463
 20
-355.4145163938
 10
522.9376901169
 20
-358.5331266759
 10
518.5160909107
 20
-361.4068993417
 10
514.0860988017
 20
-364.0285658419
 10
513.0772885463
 20
-364.5896344778
  0
LWPOLYLINE
  5
EE
330
1F
100
AcDbEntity
  8
0
  6
Continuous
 62
     1
370
    25
100
AcDbPolyline
 90
       31
 70
   128
 43
0.0
 10
618.305295095
 20
-248.6015027257
 10
618.5512693713
 20
-251.6942941639
 10
618.6633694516
 20
-255.7486798871
 10
618.5512693713
 20
-259.9324936082
 10
618.2154169406
 20
-264.2292203964
 10
617.6571292485
 20
-268.6219081367
 10
616.8786190046
 20
-273.0932154408
 10
615.8829523921
 20
-277.625499097
 10
614.6740596046
 20
-282.2008733868
 10
613.2567137727
 20
-286.8012792854
 10
611.6365046223
 20
-291.4085620262
 10
609.8198332058
 20
-296.0045380211
 10
607.8138592193
 20
-300.5710693812
 10
605.6265115386
 20
-305.0901338799
 10
603.2664118283
 20
-309.5438964294
 10
600.7428798105
 20
-313.9147820861
 10
598.0658753121
 20
-318.1855399233
 10
595.2459587529
 20
-322.3393114695
 10
592.2942648036
 20
-326.3597128363
 10
589.2224365309
 20
-330.2308666508
 10
586.0426016905
 20
-333.9375039563
 10
582.7673068725
 20
-337.4649900612
 10
579.4094793054
 20
-340.7994074262
 10
575.982371539
 20
-343.9275936822
 10
572.4995074433
 20
-346.8372032227
 10
568.9746328178
 20
-349.5167600513
 10
565.4216587567
 20
-351.9556783089
 10
561.8546069896
 20
-354.1443424976
 10
558.2875552226
 20
-356.0741086159
 10
554.7345811615
 20
-357.7373668919
 10
554.645235111
 20
-357.7758288051
  0
ARC
  5
EF
330
1F
100
AcDbEntity
  8
0
  6
Continuous
 62
     1
370
    25
100
AcDbCircle
 10
611.4168770729
 20
-317.1553710409
 30
0.0
 40
169.0949698471679
100
AcDbArc
 50
135.0825229381
 51
164.9228531045
  0
LWPOLYLINE
  5
F0
330
1F
100
AcDbEntity
  8
0
  6
Continuous
 62
     1
370
    25
100
AcDbPolyline
 90
       40
 70
   128
 43
0.0
 10
614.9261399055
 20
-233.8756502196
 10
615.2392119646
 20
-234.5886941657
 10
616.4429944467
 20
-237.7548635682
 10
617.4344516427
 20
-241.1232718419
 10
618.2096691641
 20
-244.6806242071
 10
618.7655913643
 20
-248.4128799508
 10
619.1000266072
 20
-252.3053090813
 10
619.2116525355
 20
-256.3425505044
 10
619.1000266072
 20
-260.508672481
 10
618.7655913643
 20
-264.787232324
 10
618.2096691641
 20
-269.1613421778
 10
617.4344516427
 20
-273.6137416416
 10
616.4429944467
 20
-278.1268620279
 10
615.2392119646
 20
-282.6828891004
 10
613.8278562536
 20
-287.2638444412
 10
612.2145012344
 20
-291.851641724
 10
610.4055110811
 20
-296.42818405
 10
608.4080244162
 20
-300.9754034909
 10
606.2299227003
 20
-305.4753599456
 10
603.8798038907
 20
-309.9102898077
 10
601.366942928
 20
-314.2626926547
 10
598.7012574926
 20
-318.5153905603
 10
595.8932658574
 20
-322.6516010955
 10
592.9540526436
 20
-326.6549966412
 10
589.8952135028
 20
-330.5097819504
 10
586.7288261413
 20
-334.2007412938
 10
583.4673805142
 20
-337.7133152604
 10
580.1237524838
 20
-341.0336342154
 10
576.7111353308
 20
-344.1485943395
 10
573.2429989245
 20
-347.0458994515
 10
569.7330297954
 20
-349.7141199374
 10
566.1950794394
 20
-352.1427286786
 10
562.643111305
 20
-354.3221377382
 10
559.0911431706
 20
-356.243743794
 10
555.5531928147
 20
-357.8999655858
 10
552.0432236855
 20
-359.2842691959
 10
548.5750872792
 20
-360.3911891464
 10
545.1624701262
 20
-361.2163529192
 10
541.8188420958
 20
-361.7565047157
 10
541.0533473255
 20
-361.8409431281
  0
ENDSEC
  0
SECTION
  2
OBJECTS
  0
DICTIONARY
  5
C
330
0
100
AcDbDictionary
281
     1
  3
ACAD_GROUP
350
D
  3
ACAD_LAYOUT
350
1A
  3
ACAD_MLINESTYLE
350
17
  3
ACAD_PLOTSETTINGS
350
19
  3
ACAD_PLOTSTYLENAME
350
E
  3
ACAD_SCALELIST
350
47
  0
DICTIONARY
  5
D
102
{ACAD_REACTORS
330
C
102
}
330
C
100
AcDbDictionary
281
     1
  0
DICTIONARY
  5
1A
102
{ACAD_REACTORS
330
C
102
}
330
C
100
AcDbDictionary
281
     1
  3
Layout1
350
1E
  3
Layout2
350
26
  3
Model
350
22
  0
DICTIONARY
  5
17
102
{ACAD_REACTORS
330
C
102
}
330
C
100
AcDbDictionary
281
     1
  3
Standard
350
18
  0
DICTIONARY
  5
19
102
{ACAD_REACTORS
330
C
102
}
330
C
100
AcDbDictionary
281
     1
  0
ACDBDICTIONARYWDFLT
  5
E
102
{ACAD_REACTORS
330
C
102
}
330
C
100
AcDbDictionary
281
     1
  3
Normal
350
F
100
AcDbDictionaryWithDefault
340
F
  0
DICTIONARY
  5
47
102
{ACAD_REACTORS
330
C
102
}
330
C
100
AcDbDictionary
281
     1
  3
A0
350
48
  3
A1
350
49
  3
A2
350
4A
  3
A3
350
4B
  3
A4
350
4C
  3
A5
350
4D
  3
A6
350
4E
  3
A7
350
4F
  3
A8
350
50
  3
A9
350
51
  3
B0
350
52
  3
B1
350
53
  3
B2
350
54
  3
B3
350
55
  3
B4
350
56
  3
B5
350
57
  3
B6
350
58
  3
B7
350
59
  3
B8
350
5A
  3
B9
350
5B
  3
C0
350
5C
  3
C1
350
5D
  3
C2
350
5E
  3
C3
350
5F
  3
C4
350
60
  3
C5
350
61
  3
C6
350
62
  3
C7
350
63
  3
C8
350
64
  3
C9
350
65
  3
D0
350
66
  3
D1
350
67
  3
D2
350
68
  0
LAYOUT
  5
1E
102
{ACAD_REACTORS
330
1A
102
}
330
1A
100
AcDbPlotSettings
  1

  2
none_device
  4

  6

 40
0.0
 41
0.0
 42
0.0
 43
0.0
 44
0.0
 45
0.0
 46
0.0
 47
0.0
 48
0.0
 49
0.0
140
0.0
141
0.0
142
1.0
143
1.0
 70
   688
 72
     1
 73
     0
 74
     5
  7

 75
    16
147
1.0
148
0.0
149
0.0
100
AcDbLayout
  1
Layout1
 70
     1
 71
     1
 10
0.0
 20
0.0
 11
420.0
 21
297.0
 12
0.0
 22
0.0
 32
0.0
 14
1.0000000000E+20
 24
1.0000000000E+20
 34
1.0000000000E+20
 15
-1.0000000000E+20
 25
-1.0000000000E+20
 35
-1.0000000000E+20
146
0.0
 13
0.0
 23
0.0
 33
0.0
 16
1.0
 26
0.0
 36
0.0
 17
0.0
 27
1.0
 37
0.0
 76
     0
330
1B
  0
LAYOUT
  5
26
102
{ACAD_REACTORS
330
1A
102
}
330
1A
100
AcDbPlotSettings
  1

  2
none_device
  4

  6

 40
0.0
 41
0.0
 42
0.0
 43
0.0
 44
0.0
 45
0.0
 46
0.0
 47
0.0
 48
0.0
 49
0.0
140
0.0
141
0.0
142
1.0
143
1.0
 70
   688
 72
     1
 73
     0
 74
     5
  7

 75
    16
147
1.0
148
0.0
149
0.0
100
AcDbLayout
  1
Layout2
 70
     1
 71
     2
 10
0.0
 20
0.0
 11
0.0
 21
0.0
 12
0.0
 22
0.0
 32
0.0
 14
0.0
 24
0.0
 34
0.0
 15
0.0
 25
0.0
 35
0.0
146
0.0
 13
0.0
 23
0.0
 33
0.0
 16
1.0
 26
0.0
 36
0.0
 17
0.0
 27
1.0
 37
0.0
 76
     0
330
23
  0
LAYOUT
  5
22
102
{ACAD_REACTORS
330
1A
102
}
330
1A
100
AcDbPlotSettings
  1

  2
none_device
  4
Letter_(8.50_x_11.00_Inches)
  6

 40
6.35
 41
6.35
 42
6.35000508
 43
6.35000508
 44
215.9
 45
279.4
 46
0.0
 47
0.0
 48
0.0
 49
0.0
140
0.0
141
0.0
142
1.0
143
1.0
 70
  1712
 72
     1
 73
     0
 74
     0
  7

 75
     0
147
1.0
148
0.0
149
0.0
100
AcDbLayout
  1
Model
 70
     1
 71
     0
 10
0.0
 20
0.0
 11
279.4
 21
215.9
 12
0.0
 22
0.0
 32
0.0
 14
0.0
 24
0.0
 34
0.0
 15
279.4
 25
215.9
 35
0.0
146
0.0
 13
0.0
 23
0.0
 33
0.0
 16
1.0
 26
0.0
 36
0.0
 17
0.0
 27
1.0
 37
0.0
 76
     0
330
1F
331
29
  0
MLINESTYLE
  5
18
102
{ACAD_REACTORS
330
17
102
}
330
17
100
AcDbMlineStyle
  2
Standard
 70
     0
  3

 62
   256
 51
90.0
 52
90.0
 71
     2
 49
0.5
 62
   256
  6
BYLAYER
 49
-0.5
 62
   256
  6
BYLAYER
  0
ACDBPLACEHOLDER
  5
F
102
{ACAD_REACTORS
330
E
102
}
330
E
  0
SCALE
  5
48
102
{ACAD_REACTORS
330
47
102
}
330
47
100
AcDbScale
 70
     0
300
1:1
140
1.0
141
1.0
290
     1
  0
SCALE
  5
49
102
{ACAD_REACTORS
330
47
102
}
330
47
100
AcDbScale
 70
     0
300
1:2
140
1.0
141
2.0
290
     0
  0
SCALE
  5
4A
102
{ACAD_REACTORS
330
47
102
}
330
47
100
AcDbScale
 70
     0
300
1:4
140
1.0
141
4.0
290
     0
  0
SCALE
  5
4B
102
{ACAD_REACTORS
330
47
102
}
330
47
100
AcDbScale
 70
     0
300
1:5
140
1.0
141
5.0
290
     0
  0
SCALE
  5
4C
102
{ACAD_REACTORS
330
47
102
}
330
47
100
AcDbScale
 70
     0
300
1:8
140
1.0
141
8.0
290
     0
  0
SCALE
  5
4D
102
{ACAD_REACTORS
330
47
102
}
330
47
100
AcDbScale
 70
     0
300
1:10
140
1.0
141
10.0
290
     0
  0
SCALE
  5
4E
102
{ACAD_REACTORS
330
47
102
}
330
47
100
AcDbScale
 70
     0
300
1:16
140
1.0
141
16.0
290
     0
  0
SCALE
  5
4F
102
{ACAD_REACTORS
330
47
102
}
330
47
100
AcDbScale
 70
     0
300
1:20
140
1.0
141
20.0
290
     0
  0
SCALE
  5
50
102
{ACAD_REACTORS
330
47
102
}
330
47
100
AcDbScale
 70
     0
300
1:30
140
1.0
141
30.0
290
     0
  0
SCALE
  5
51
102
{ACAD_REACTORS
330
47
102
}
330
47
100
AcDbScale
 70
     0
300
1:40
140
1.0
141
40.0
290
     0
  0
SCALE
  5
52
102
{ACAD_REACTORS
330
47
102
}
330
47
100
AcDbScale
 70
     0
300
1:50
140
1.0
141
50.0
290
     0
  0
SCALE
  5
53
102
{ACAD_REACTORS
330
47
102
}
330
47
100
AcDbScale
 70
     0
300
1:100
140
1.0
141
100.0
290
     0
  0
SCALE
  5
54
102
{ACAD_REACTORS
330
47
102
}
330
47
100
AcDbScale
 70
     0
300
2:1
140
2.0
141
1.0
290
     0
  0
SCALE
  5
55
102
{ACAD_REACTORS
330
47
102
}
330
47
100
AcDbScale
 70
     0
300
4:1
140
4.0
141
1.0
290
     0
  0
SCALE
  5
56
102
{ACAD_REACTORS
330
47
102
}
330
47
100
AcDbScale
 70
     0
300
8:1
140
8.0
141
1.0
290
     0
  0
SCALE
  5
57
102
{ACAD_REACTORS
330
47
102
}
330
47
100
AcDbScale
 70
     0
300
10:1
140
10.0
141
1.0
290
     0
  0
SCALE
  5
58
102
{ACAD_REACTORS
330
47
102
}
330
47
100
AcDbScale
 70
     0
300
100:1
140
100.0
141
1.0
290
     0
  0
SCALE
  5
59
102
{ACAD_REACTORS
330
47
102
}
330
47
100
AcDbScale
 70
     0
300
1/128" = 1'-0"
140
0.0078125
141
12.0
290
     0
  0
SCALE
  5
5A
102
{ACAD_REACTORS
330
47
102
}
330
47
100
AcDbScale
 70
     0
300
1/64" = 1'-0"
140
0.015625
141
12.0
290
     0
  0
SCALE
  5
5B
102
{ACAD_REACTORS
330
47
102
}
330
47
100
AcDbScale
 70
     0
300
1/32" = 1'-0"
140
0.03125
141
12.0
290
     0
  0
SCALE
  5
5C
102
{ACAD_REACTORS
330
47
102
}
330
47
100
AcDbScale
 70
     0
300
1/16" = 1'-0"
140
0.0625
141
12.0
290
     0
  0
SCALE
  5
5D
102
{ACAD_REACTORS
330
47
102
}
330
47
100
AcDbScale
 70
     0
300
3/32" = 1'-0"
140
0.09375
141
12.0
290
     0
  0
SCALE
  5
5E
102
{ACAD_REACTORS
330
47
102
}
330
47
100
AcDbScale
 70
     0
300
1/8" = 1'-0"
140
0.125
141
12.0
290
     0
  0
SCALE
  5
5F
102
{ACAD_REACTORS
330
47
102
}
330
47
100
AcDbScale
 70
     0
300
3/16" = 1'-0"
140
0.1875
141
12.0
290
     0
  0
SCALE
  5
60
102
{ACAD_REACTORS
330
47
102
}
330
47
100
AcDbScale
 70
     0
300
1/4" = 1'-0"
140
0.25
141
12.0
290
     0
  0
SCALE
  5
61
102
{ACAD_REACTORS
330
47
102
}
330
47
100
AcDbScale
 70
     0
300
3/8" = 1'-0"
140
0.375
141
12.0
290
     0
  0
SCALE
  5
62
102
{ACAD_REACTORS
330
47
102
}
330
47
100
AcDbScale
 70
     0
300
1/2" = 1'-0"
140
0.5
141
12.0
290
     0
  0
SCALE
  5
63
102
{ACAD_REACTORS
330
47
102
}
330
47
100
AcDbScale
 70
     0
300
3/4" = 1'-0"
140
0.75
141
12.0
290
     0
  0
SCALE
  5
64
102
{ACAD_REACTORS
330
47
102
}
330
47
100
AcDbScale
 70
     0
300
1" = 1'-0"
140
1.0
141
12.0
290
     0
  0
SCALE
  5
65
102
{ACAD_REACTORS
330
47
102
}
330
47
100
AcDbScale
 70
     0
300
1-1/2" = 1'-0"
140
1.5
141
12.0
290
     0
  0
SCALE
  5
66
102
{ACAD_REACTORS
330
47
102
}
330
47
100
AcDbScale
 70
     0
300
3" = 1'-0"
140
3.0
141
12.0
290
     0
  0
SCALE
  5
67
102
{ACAD_REACTORS
330
47
102
}
330
47
100
AcDbScale
 70
     0
300
6" = 1'-0"
140
6.0
141
12.0
290
     0
  0
SCALE
  5
68
102
{ACAD_REACTORS
330
47
102
}
330
47
100
AcDbScale
 70
     0
300
1'-0" = 1'-0"
140
12.0
141
12.0
290
     0
  0
ENDSEC
  0
EOF
